Только Вторникам

Досье Только Вторникам




Адрес: Россия, Уфа
Дата рождения:14 Января 1986
Сайт: offline
Следить за пользователем



Только Вторникам родился 14 Января 1986 года. Нам не известно где родился Только. За то, мы выяснили, что сейчас он проживает в городе Уфа, Россия. В своих религиозных взглядах он указал: "secede - leraine".


Скрытые друзья пользователя:


Скрытые друзья еще не проверялись.

Найти скрытых друзей






Вот, что рассказывает Только о себе:
Capo on 4th fret

Chords (I'm no pro at chord names so a lot of these will have * next to them)

D: xx0232
D*: xx0423
F#m*: 224422
F#m: 244222
Bm*: x04432
A: x02220
A*: 04220
A7: 002020
G: 320003
Em*: 024000
Em: 022000

Fill1:

e--------------------------0------------
B--------------------------2----------
G--2/4--2------------------2------------
D------------4---0---4-----2-------------
A--------------------------0-------------
E---------------------------------------

FIll2:
e--------------------------------------------------
B--------------------------------------------------
G-------------0--0------0------0--------0---
D---0-0-------0h2------2/4/2---0---0----0-
A---0h2----------------------------2--------
E-------------------------------------------------

INTRO (and VERSE):

D  D*  F#m*  F#m  Bm*  A   G
Em*  Em    D    A A* A A* A G

They ask for more;
What do you think this fanclub is for?
I slithered up each rose corridor,
I kept a warm safe place in my core
before I lost it.

They ask for blood;
What do you think this womans made of?
I stuck a small thin pin in my thumb;
They dreamt a low long line to be crossed
and I crossed it.

A  A*  A7   A      D
I'm alive but a different kind of life
Fill1                  A* A A* A G Fill2
Than the way I used to be;
I retire to a split white smile to be seen
In on an old sad magazine.

And this girls eyes,
Well they were roughly wretched open;
I could see a starry stare up your thigh.
You hid behind your hair, oh, but I saw you smiling

While all these guys, all these curious sets of eyes
safe behind a TV screen.
I let them pry;
Pick apart and hang out to dry
Almost every piece of me.
(If you don't love me, I'm sorry)

Oh what a trip,
Oh what a shivering silver ship,
Oh what a hot half-life I half lived
Oh and the stripes and stars
how they stripped off the siding.

When my life ripped, all from the part that played as a kid
Into the part that blazed through your lips
To find a safe warm place then to sit
curl up inside it.

So here's goodbye
From the part that stays behind
To the part that has to leave
To the sublime lips that were never spoiled
by lying to the face inside the being
A A* A A* A G Fill2
Who wasn't me
Who wasn't me
She's not me

**************************
**************************

Standard tuning

Intro
e--------------------------------------------------
b--------------------------------------------------
g--2-2---2-2---2-2---2-2---2-2---2-2---2-2---2-2---
d--3—-3--3—-3--3—-3--3—-3--3—-3--3—-3--3—-3--3—-3--
a--------------------------------------------------
E--------------------------------------------------

“(Will you be) swimming in her pools?..”
e---------------------------------------------------0—-1---0—-1--------
b---------------------------------------------------1—-3---1—-3--------
g--2-2---2-2---2-2---2-2----------------------------2—-2---2—-2----X2--
d--3--3--1--1--0--0--------5-5---5-5---5-5/--3-3----2—-0---2—-0----X2--
a---—--—--—--—--—--—-3—-3—-1—-1--1—-1--1—-1--1—-1—--0------0-----------
E----------------------------------------------------------------------

“And if you’re still there when it snows..”
e--1--0--1--0--3--
b--1--1--3--1--3--
g--2--0--2--2--0--
d--3--2--0--2--0--
a--3--3-----0--2--
E--1-----------3--

“Will you be coming back here?..”
e--0--3--1---1--3--1---1--3--1---1--3--1--
b--1--3--1---3--3--1---3--3--1---3--3--3--
g--2--0--2---2--0--2---2--0--2---2--0--2--
d--2--0--3---0--0--3---0--0--3---0--0--0--
a--0--2--3------2--3------2--3------2-----
E-----3--1------3--1------3--1------3-----

“(Are you) running up here river banks